  0
SECTION
  2
ENTITIES
  0
ARC
  8
0
 10
0.670
 20
0.000
 40
0.670
 50
67.500
 51
-1.377
  0
ARC
  8
0
 10
0.670
 20
0.000
 40
0.900
 50
67.500
 51
-32.120
  0
LINE
  8
0
 10
0.926
 20
0.619
 11
1.014
 21
0.831
  0
LINE
  8
0
 10
1.340
 20
-0.016
 11
1.354
 21
0.592
  0
ARC
  8
0
 10
1.469
 20
0.589
 40
0.115
 50
4.189
 51
-175.811
  0
LINE
  8
0
 10
1.355
 20
0.580
 11
1.455
 21
-0.793
  0
LINE
  8
0
 10
1.584
 20
0.597
 11
1.685
 21
-0.777
  0
ARC
  8
0
 10
1.570
 20
-0.785
 40
0.115
 50
-175.811
 51
4.189
  0
LINE
  8
0
 10
1.570
 20
0.793
 11
1.570
 21
0.789
  0
LINE
  8
0
 10
1.685
 20
-0.793
 11
1.685
 21
-0.789
  0
ARC
  8
0
 10
1.685
 20
0.785
 40
0.115
 50
4.189
 51
-175.811
  0
LINE
  8
0
 10
1.570
 20
0.777
 11
1.685
 21
-0.793
  0
LINE
  8
0
 10
1.800
 20
0.793
 11
1.915
 21
-0.777
  0
ARC
  8
0
 10
1.800
 20
-0.785
 40
0.115
 50
-175.811
 51
4.189
  0
LINE
  8
0
 10
1.800
 20
0.793
 11
1.800
 21
0.789
  0
LINE
  8
0
 10
1.915
 20
-0.793
 11
1.915
 21
-0.789
  0
ARC
  8
0
 10
1.915
 20
0.785
 40
0.115
 50
4.189
 51
-175.811
  0
LINE
  8
0
 10
1.800
 20
0.777
 11
1.915
 21
-0.793
  0
LINE
  8
0
 10
2.030
 20
0.793
 11
2.145
 21
-0.777
  0
ARC
  8
0
 10
2.030
 20
-0.785
 40
0.115
 50
-175.811
 51
4.189
  0
LINE
  8
0
 10
2.030
 20
0.793
 11
2.030
 21
0.789
  0
LINE
  8
0
 10
2.145
 20
-0.793
 11
2.145
 21
-0.789
  0
ARC
  8
0
 10
2.145
 20
0.785
 40
0.115
 50
4.189
 51
-175.811
  0
LINE
  8
0
 10
2.030
 20
0.777
 11
2.145
 21
-0.793
  0
LINE
  8
0
 10
2.260
 20
0.793
 11
2.375
 21
-0.777
  0
ARC
  8
0
 10
2.260
 20
-0.785
 40
0.115
 50
-175.811
 51
4.189
  0
LINE
  8
0
 10
2.260
 20
0.793
 11
2.260
 21
0.789
  0
LINE
  8
0
 10
2.375
 20
-0.793
 11
2.375
 21
-0.789
  0
ARC
  8
0
 10
2.375
 20
0.785
 40
0.115
 50
4.189
 51
-175.811
  0
LINE
  8
0
 10
2.260
 20
0.777
 11
2.375
 21
-0.793
  0
LINE
  8
0
 10
2.490
 20
0.793
 11
2.605
 21
-0.777
  0
ARC
  8
0
 10
2.490
 20
-0.785
 40
0.115
 50
-175.811
 51
4.189
  0
LINE
  8
0
 10
2.490
 20
0.793
 11
2.490
 21
0.789
  0
LINE
  8
0
 10
2.605
 20
-0.793
 11
2.605
 21
-0.789
  0
ARC
  8
0
 10
2.605
 20
0.785
 40
0.115
 50
4.189
 51
-175.811
  0
LINE
  8
0
 10
2.490
 20
0.777
 11
2.605
 21
-0.793
  0
LINE
  8
0
 10
2.720
 20
0.793
 11
2.835
 21
-0.777
  0
ARC
  8
0
 10
2.720
 20
-0.785
 40
0.115
 50
-175.811
 51
4.189
  0
LINE
  8
0
 10
2.720
 20
0.793
 11
2.720
 21
0.789
  0
LINE
  8
0
 10
2.835
 20
-0.793
 11
2.835
 21
-0.789
  0
ARC
  8
0
 10
2.835
 20
0.785
 40
0.115
 50
4.189
 51
-175.811
  0
LINE
  8
0
 10
2.720
 20
0.777
 11
2.835
 21
-0.793
  0
LINE
  8
0
 10
2.950
 20
0.793
 11
3.065
 21
-0.777
  0
ARC
  8
0
 10
2.950
 20
-0.785
 40
0.115
 50
-175.811
 51
4.189
  0
LINE
  8
0
 10
2.950
 20
0.793
 11
2.950
 21
0.789
  0
LINE
  8
0
 10
3.065
 20
-0.793
 11
3.065
 21
-0.789
  0
ARC
  8
0
 10
3.065
 20
0.785
 40
0.115
 50
4.189
 51
-175.811
  0
LINE
  8
0
 10
2.950
 20
0.777
 11
3.065
 21
-0.793
  0
LINE
  8
0
 10
3.180
 20
0.793
 11
3.295
 21
-0.777
  0
ARC
  8
0
 10
3.180
 20
-0.785
 40
0.115
 50
-175.811
 51
4.189
  0
LINE
  8
0
 10
3.180
 20
0.793
 11
3.180
 21
0.789
  0
LINE
  8
0
 10
3.295
 20
-0.793
 11
3.295
 21
-0.789
  0
ARC
  8
0
 10
3.295
 20
0.785
 40
0.115
 50
4.189
 51
-175.811
  0
LINE
  8
0
 10
3.180
 20
0.777
 11
3.295
 21
-0.793
  0
LINE
  8
0
 10
3.410
 20
0.793
 11
3.525
 21
-0.777
  0
ARC
  8
0
 10
3.410
 20
-0.785
 40
0.115
 50
-175.811
 51
4.189
  0
LINE
  8
0
 10
3.410
 20
0.793
 11
3.410
 21
0.789
  0
LINE
  8
0
 10
3.525
 20
-0.793
 11
3.525
 21
-0.789
  0
ARC
  8
0
 10
3.525
 20
0.785
 40
0.115
 50
4.189
 51
-175.811
  0
LINE
  8
0
 10
3.410
 20
0.777
 11
3.525
 21
-0.793
  0
LINE
  8
0
 10
3.640
 20
0.793
 11
3.755
 21
-0.777
  0
ARC
  8
0
 10
3.640
 20
-0.785
 40
0.115
 50
-175.811
 51
4.189
  0
LINE
  8
0
 10
3.640
 20
0.793
 11
3.640
 21
0.789
  0
LINE
  8
0
 10
3.755
 20
-0.793
 11
3.755
 21
-0.789
  0
ARC
  8
0
 10
3.755
 20
0.785
 40
0.115
 50
4.189
 51
-175.811
  0
LINE
  8
0
 10
3.640
 20
0.777
 11
3.755
 21
-0.793
  0
LINE
  8
0
 10
3.870
 20
0.793
 11
3.985
 21
-0.777
  0
ARC
  8
0
 10
3.870
 20
-0.785
 40
0.115
 50
-175.811
 51
4.189
  0
LINE
  8
0
 10
3.870
 20
0.793
 11
3.870
 21
0.789
  0
LINE
  8
0
 10
3.985
 20
-0.793
 11
3.985
 21
-0.789
  0
ARC
  8
0
 10
3.985
 20
0.785
 40
0.115
 50
4.189
 51
-175.811
  0
LINE
  8
0
 10
3.870
 20
0.777
 11
3.985
 21
-0.793
  0
LINE
  8
0
 10
4.100
 20
0.793
 11
4.215
 21
-0.777
  0
ARC
  8
0
 10
4.100
 20
-0.785
 40
0.115
 50
-175.811
 51
4.189
  0
LINE
  8
0
 10
4.100
 20
0.793
 11
4.100
 21
0.789
  0
LINE
  8
0
 10
4.215
 20
-0.793
 11
4.215
 21
-0.789
  0
ARC
  8
0
 10
4.215
 20
0.785
 40
0.115
 50
4.189
 51
-175.811
  0
LINE
  8
0
 10
4.100
 20
0.777
 11
4.215
 21
-0.793
  0
LINE
  8
0
 10
4.330
 20
0.793
 11
4.445
 21
-0.777
  0
ARC
  8
0
 10
4.330
 20
-0.785
 40
0.115
 50
-175.811
 51
4.189
  0
LINE
  8
0
 10
4.330
 20
0.793
 11
4.330
 21
0.789
  0
LINE
  8
0
 10
4.445
 20
-0.793
 11
4.445
 21
-0.789
  0
ARC
  8
0
 10
4.445
 20
0.785
 40
0.115
 50
4.189
 51
-175.811
  0
LINE
  8
0
 10
4.330
 20
0.777
 11
4.445
 21
-0.793
  0
LINE
  8
0
 10
4.560
 20
0.793
 11
4.675
 21
-0.777
  0
ARC
  8
0
 10
4.560
 20
-0.785
 40
0.115
 50
-175.811
 51
4.189
  0
LINE
  8
0
 10
4.560
 20
0.793
 11
4.560
 21
0.789
  0
LINE
  8
0
 10
4.675
 20
-0.793
 11
4.675
 21
-0.789
  0
ARC
  8
0
 10
4.675
 20
0.785
 40
0.115
 50
4.189
 51
-175.811
  0
LINE
  8
0
 10
4.560
 20
0.777
 11
4.675
 21
-0.793
  0
LINE
  8
0
 10
4.790
 20
0.793
 11
4.905
 21
-0.777
  0
ARC
  8
0
 10
4.790
 20
-0.785
 40
0.115
 50
-175.811
 51
4.189
  0
LINE
  8
0
 10
4.790
 20
0.793
 11
4.790
 21
0.789
  0
LINE
  8
0
 10
4.905
 20
-0.793
 11
4.905
 21
-0.789
  0
ARC
  8
0
 10
4.905
 20
0.785
 40
0.115
 50
4.189
 51
-175.811
  0
LINE
  8
0
 10
4.790
 20
0.777
 11
4.905
 21
-0.793
  0
LINE
  8
0
 10
5.020
 20
0.793
 11
5.135
 21
-0.777
  0
ARC
  8
0
 10
5.020
 20
-0.785
 40
0.115
 50
-175.811
 51
4.189
  0
LINE
  8
0
 10
5.020
 20
0.793
 11
5.020
 21
0.789
  0
LINE
  8
0
 10
5.135
 20
-0.793
 11
5.135
 21
-0.789
  0
ARC
  8
0
 10
5.135
 20
0.785
 40
0.115
 50
4.189
 51
-175.811
  0
LINE
  8
0
 10
5.020
 20
0.777
 11
5.135
 21
-0.793
  0
LINE
  8
0
 10
5.250
 20
0.793
 11
5.365
 21
-0.777
  0
ARC
  8
0
 10
5.250
 20
-0.785
 40
0.115
 50
-175.811
 51
4.189
  0
LINE
  8
0
 10
5.250
 20
0.793
 11
5.250
 21
0.789
  0
LINE
  8
0
 10
5.365
 20
-0.793
 11
5.365
 21
-0.789
  0
ARC
  8
0
 10
5.365
 20
0.785
 40
0.115
 50
4.189
 51
-175.811
  0
LINE
  8
0
 10
5.250
 20
0.777
 11
5.365
 21
-0.793
  0
LINE
  8
0
 10
5.480
 20
0.793
 11
5.595
 21
-0.777
  0
ARC
  8
0
 10
5.480
 20
-0.785
 40
0.115
 50
-175.811
 51
4.189
  0
LINE
  8
0
 10
5.480
 20
0.793
 11
5.480
 21
0.789
  0
LINE
  8
0
 10
5.595
 20
-0.793
 11
5.595
 21
-0.789
  0
ARC
  8
0
 10
5.595
 20
0.785
 40
0.115
 50
4.189
 51
-175.811
  0
LINE
  8
0
 10
5.480
 20
0.777
 11
5.595
 21
-0.793
  0
LINE
  8
0
 10
5.710
 20
0.793
 11
5.825
 21
-0.777
  0
ARC
  8
0
 10
5.710
 20
-0.785
 40
0.115
 50
-175.811
 51
4.189
  0
LINE
  8
0
 10
5.710
 20
0.793
 11
5.710
 21
0.789
  0
LINE
  8
0
 10
5.825
 20
-0.793
 11
5.825
 21
-0.789
  0
ARC
  8
0
 10
5.825
 20
0.785
 40
0.115
 50
4.189
 51
-175.811
  0
LINE
  8
0
 10
5.710
 20
0.777
 11
5.825
 21
-0.793
  0
LINE
  8
0
 10
5.940
 20
0.793
 11
6.055
 21
-0.777
  0
ARC
  8
0
 10
5.940
 20
-0.785
 40
0.115
 50
-175.811
 51
4.189
  0
LINE
  8
0
 10
5.940
 20
0.793
 11
5.940
 21
0.789
  0
LINE
  8
0
 10
6.055
 20
-0.793
 11
6.055
 21
-0.789
  0
ARC
  8
0
 10
6.055
 20
0.785
 40
0.115
 50
4.189
 51
-175.811
  0
LINE
  8
0
 10
5.940
 20
0.777
 11
6.055
 21
-0.793
  0
LINE
  8
0
 10
6.170
 20
0.793
 11
6.285
 21
-0.777
  0
ARC
  8
0
 10
6.170
 20
-0.785
 40
0.115
 50
-175.811
 51
4.189
  0
LINE
  8
0
 10
6.170
 20
0.793
 11
6.170
 21
0.789
  0
LINE
  8
0
 10
6.285
 20
-0.793
 11
6.285
 21
-0.789
  0
ARC
  8
0
 10
6.285
 20
0.785
 40
0.115
 50
4.189
 51
-175.811
  0
LINE
  8
0
 10
6.170
 20
0.777
 11
6.285
 21
-0.793
  0
LINE
  8
0
 10
6.400
 20
0.793
 11
6.515
 21
-0.777
  0
ARC
  8
0
 10
6.400
 20
-0.785
 40
0.115
 50
-175.811
 51
4.189
  0
LINE
  8
0
 10
6.400
 20
0.793
 11
6.400
 21
0.789
  0
LINE
  8
0
 10
6.515
 20
-0.793
 11
6.515
 21
-0.789
  0
ARC
  8
0
 10
6.515
 20
0.785
 40
0.115
 50
4.189
 51
-175.811
  0
LINE
  8
0
 10
6.400
 20
0.777
 11
6.515
 21
-0.793
  0
LINE
  8
0
 10
6.630
 20
0.793
 11
6.745
 21
-0.777
  0
ARC
  8
0
 10
6.630
 20
-0.785
 40
0.115
 50
-175.811
 51
4.189
  0
LINE
  8
0
 10
6.630
 20
0.793
 11
6.630
 21
0.789
  0
LINE
  8
0
 10
6.745
 20
-0.793
 11
6.745
 21
-0.789
  0
ARC
  8
0
 10
6.745
 20
0.785
 40
0.115
 50
4.189
 51
-175.811
  0
LINE
  8
0
 10
6.630
 20
0.777
 11
6.745
 21
-0.793
  0
LINE
  8
0
 10
6.860
 20
0.793
 11
6.975
 21
-0.777
  0
ARC
  8
0
 10
6.860
 20
-0.785
 40
0.115
 50
-175.811
 51
4.189
  0
LINE
  8
0
 10
6.860
 20
0.793
 11
6.860
 21
0.789
  0
LINE
  8
0
 10
6.975
 20
-0.793
 11
6.975
 21
-0.789
  0
ARC
  8
0
 10
6.975
 20
0.785
 40
0.115
 50
4.189
 51
-175.811
  0
LINE
  8
0
 10
6.860
 20
0.777
 11
6.975
 21
-0.793
  0
LINE
  8
0
 10
7.090
 20
0.793
 11
7.205
 21
-0.777
  0
ARC
  8
0
 10
7.090
 20
-0.785
 40
0.115
 50
-175.811
 51
4.189
  0
LINE
  8
0
 10
7.090
 20
0.793
 11
7.090
 21
0.789
  0
LINE
  8
0
 10
7.205
 20
-0.793
 11
7.205
 21
-0.789
  0
ARC
  8
0
 10
7.205
 20
0.785
 40
0.115
 50
4.189
 51
-175.811
  0
LINE
  8
0
 10
7.090
 20
0.777
 11
7.205
 21
-0.793
  0
LINE
  8
0
 10
7.320
 20
0.793
 11
7.435
 21
-0.777
  0
ARC
  8
0
 10
7.320
 20
-0.785
 40
0.115
 50
-175.811
 51
4.189
  0
LINE
  8
0
 10
7.320
 20
0.793
 11
7.320
 21
0.789
  0
LINE
  8
0
 10
7.435
 20
-0.793
 11
7.435
 21
-0.789
  0
ARC
  8
0
 10
7.435
 20
0.785
 40
0.115
 50
4.189
 51
-175.811
  0
LINE
  8
0
 10
7.320
 20
0.777
 11
7.435
 21
-0.793
  0
LINE
  8
0
 10
7.550
 20
0.793
 11
7.665
 21
-0.777
  0
ARC
  8
0
 10
7.550
 20
-0.785
 40
0.115
 50
-175.811
 51
4.189
  0
LINE
  8
0
 10
7.550
 20
0.793
 11
7.550
 21
0.789
  0
LINE
  8
0
 10
7.665
 20
-0.793
 11
7.665
 21
-0.789
  0
ARC
  8
0
 10
7.665
 20
0.785
 40
0.115
 50
4.189
 51
-175.811
  0
LINE
  8
0
 10
7.550
 20
0.777
 11
7.665
 21
-0.793
  0
LINE
  8
0
 10
7.780
 20
0.793
 11
7.895
 21
-0.777
  0
ARC
  8
0
 10
7.780
 20
-0.785
 40
0.115
 50
-175.811
 51
4.189
  0
LINE
  8
0
 10
7.780
 20
0.793
 11
7.780
 21
0.789
  0
LINE
  8
0
 10
7.895
 20
-0.793
 11
7.895
 21
-0.789
  0
ARC
  8
0
 10
7.895
 20
0.785
 40
0.115
 50
4.189
 51
-175.811
  0
LINE
  8
0
 10
7.780
 20
0.777
 11
7.895
 21
-0.793
  0
LINE
  8
0
 10
8.010
 20
0.793
 11
8.125
 21
-0.777
  0
ARC
  8
0
 10
8.010
 20
-0.785
 40
0.115
 50
-175.811
 51
4.189
  0
LINE
  8
0
 10
8.010
 20
0.793
 11
8.010
 21
0.789
  0
LINE
  8
0
 10
8.125
 20
-0.793
 11
8.125
 21
-0.789
  0
ARC
  8
0
 10
8.125
 20
0.785
 40
0.115
 50
4.189
 51
-175.811
  0
LINE
  8
0
 10
8.010
 20
0.777
 11
8.125
 21
-0.793
  0
LINE
  8
0
 10
8.240
 20
0.793
 11
8.355
 21
-0.777
  0
ARC
  8
0
 10
8.240
 20
-0.785
 40
0.115
 50
-175.811
 51
4.189
  0
LINE
  8
0
 10
8.240
 20
0.793
 11
8.240
 21
0.789
  0
LINE
  8
0
 10
8.355
 20
-0.793
 11
8.355
 21
-0.789
  0
ARC
  8
0
 10
8.355
 20
0.785
 40
0.115
 50
4.189
 51
-175.811
  0
LINE
  8
0
 10
8.240
 20
0.777
 11
8.355
 21
-0.793
  0
LINE
  8
0
 10
8.470
 20
0.793
 11
8.585
 21
-0.777
  0
ARC
  8
0
 10
8.470
 20
-0.785
 40
0.115
 50
-175.811
 51
4.189
  0
LINE
  8
0
 10
8.470
 20
0.793
 11
8.470
 21
0.789
  0
LINE
  8
0
 10
8.585
 20
-0.793
 11
8.585
 21
-0.789
  0
ARC
  8
0
 10
8.585
 20
0.785
 40
0.115
 50
4.189
 51
-175.811
  0
LINE
  8
0
 10
8.470
 20
0.777
 11
8.585
 21
-0.793
  0
LINE
  8
0
 10
8.700
 20
0.793
 11
8.815
 21
-0.777
  0
ARC
  8
0
 10
8.700
 20
-0.785
 40
0.115
 50
-175.811
 51
4.189
  0
LINE
  8
0
 10
8.700
 20
0.793
 11
8.700
 21
0.789
  0
LINE
  8
0
 10
8.815
 20
-0.793
 11
8.815
 21
-0.789
  0
ARC
  8
0
 10
8.815
 20
0.785
 40
0.115
 50
4.189
 51
-175.811
  0
LINE
  8
0
 10
8.700
 20
0.777
 11
8.815
 21
-0.793
  0
LINE
  8
0
 10
8.930
 20
0.793
 11
9.045
 21
-0.777
  0
ARC
  8
0
 10
8.930
 20
-0.785
 40
0.115
 50
-175.811
 51
4.189
  0
LINE
  8
0
 10
8.930
 20
0.793
 11
8.930
 21
0.789
  0
LINE
  8
0
 10
9.045
 20
-0.793
 11
9.045
 21
-0.789
  0
ARC
  8
0
 10
9.045
 20
0.785
 40
0.115
 50
4.189
 51
-175.811
  0
LINE
  8
0
 10
8.930
 20
0.777
 11
9.045
 21
-0.793
  0
LINE
  8
0
 10
9.160
 20
0.793
 11
9.275
 21
-0.777
  0
ARC
  8
0
 10
9.160
 20
-0.785
 40
0.115
 50
-175.811
 51
4.189
  0
LINE
  8
0
 10
9.160
 20
0.793
 11
9.160
 21
0.789
  0
LINE
  8
0
 10
9.275
 20
-0.793
 11
9.275
 21
-0.789
  0
ARC
  8
0
 10
9.275
 20
0.785
 40
0.115
 50
4.189
 51
-175.811
  0
LINE
  8
0
 10
9.160
 20
0.777
 11
9.275
 21
-0.793
  0
LINE
  8
0
 10
9.390
 20
0.793
 11
9.505
 21
-0.777
  0
ARC
  8
0
 10
9.390
 20
-0.785
 40
0.115
 50
-175.811
 51
4.189
  0
LINE
  8
0
 10
9.390
 20
0.793
 11
9.390
 21
0.789
  0
LINE
  8
0
 10
9.505
 20
-0.793
 11
9.505
 21
-0.789
  0
ARC
  8
0
 10
9.505
 20
0.785
 40
0.115
 50
4.189
 51
-175.811
  0
LINE
  8
0
 10
9.390
 20
0.777
 11
9.505
 21
-0.793
  0
LINE
  8
0
 10
9.620
 20
0.793
 11
9.735
 21
-0.777
  0
ARC
  8
0
 10
9.620
 20
-0.785
 40
0.115
 50
-175.811
 51
4.189
  0
LINE
  8
0
 10
9.620
 20
0.793
 11
9.620
 21
0.789
  0
LINE
  8
0
 10
9.735
 20
-0.793
 11
9.735
 21
-0.789
  0
ARC
  8
0
 10
9.735
 20
0.785
 40
0.115
 50
4.189
 51
-175.811
  0
LINE
  8
0
 10
9.620
 20
0.777
 11
9.735
 21
-0.793
  0
LINE
  8
0
 10
9.850
 20
0.793
 11
9.965
 21
-0.777
  0
ARC
  8
0
 10
9.850
 20
-0.785
 40
0.115
 50
-175.811
 51
4.189
  0
LINE
  8
0
 10
9.850
 20
0.793
 11
9.850
 21
0.789
  0
LINE
  8
0
 10
9.965
 20
-0.793
 11
9.965
 21
-0.789
  0
ARC
  8
0
 10
9.965
 20
0.785
 40
0.115
 50
4.189
 51
-175.811
  0
LINE
  8
0
 10
9.850
 20
0.777
 11
9.965
 21
-0.793
  0
LINE
  8
0
 10
10.080
 20
0.793
 11
10.195
 21
-0.777
  0
ARC
  8
0
 10
10.080
 20
-0.785
 40
0.115
 50
-175.811
 51
4.189
  0
LINE
  8
0
 10
10.080
 20
0.793
 11
10.080
 21
0.789
  0
LINE
  8
0
 10
10.195
 20
-0.793
 11
10.195
 21
-0.789
  0
ARC
  8
0
 10
10.195
 20
0.785
 40
0.115
 50
4.189
 51
-175.811
  0
LINE
  8
0
 10
10.080
 20
0.777
 11
10.195
 21
-0.793
  0
LINE
  8
0
 10
10.310
 20
0.793
 11
10.425
 21
-0.777
  0
ARC
  8
0
 10
10.310
 20
-0.785
 40
0.115
 50
-175.811
 51
4.189
  0
LINE
  8
0
 10
10.310
 20
0.793
 11
10.310
 21
0.789
  0
LINE
  8
0
 10
10.425
 20
-0.793
 11
10.425
 21
-0.789
  0
ARC
  8
0
 10
10.425
 20
0.785
 40
0.115
 50
4.189
 51
-175.811
  0
LINE
  8
0
 10
10.310
 20
0.777
 11
10.425
 21
-0.793
  0
LINE
  8
0
 10
10.540
 20
0.793
 11
10.655
 21
-0.777
  0
ARC
  8
0
 10
10.540
 20
-0.785
 40
0.115
 50
-175.811
 51
4.189
  0
LINE
  8
0
 10
10.540
 20
0.793
 11
10.540
 21
0.789
  0
LINE
  8
0
 10
10.655
 20
-0.793
 11
10.655
 21
-0.789
  0
ARC
  8
0
 10
10.655
 20
0.785
 40
0.115
 50
4.189
 51
-175.811
  0
LINE
  8
0
 10
10.540
 20
0.777
 11
10.655
 21
-0.793
  0
LINE
  8
0
 10
10.770
 20
0.793
 11
10.885
 21
-0.777
  0
ARC
  8
0
 10
10.770
 20
-0.785
 40
0.115
 50
-175.811
 51
4.189
  0
LINE
  8
0
 10
10.770
 20
0.793
 11
10.770
 21
0.789
  0
LINE
  8
0
 10
10.885
 20
-0.793
 11
10.885
 21
-0.789
  0
ARC
  8
0
 10
10.885
 20
0.785
 40
0.115
 50
4.189
 51
-175.811
  0
LINE
  8
0
 10
10.770
 20
0.777
 11
10.885
 21
-0.793
  0
LINE
  8
0
 10
11.000
 20
0.793
 11
11.115
 21
-0.777
  0
ARC
  8
0
 10
11.000
 20
-0.785
 40
0.115
 50
-175.811
 51
4.189
  0
LINE
  8
0
 10
11.000
 20
0.793
 11
11.000
 21
0.789
  0
LINE
  8
0
 10
11.115
 20
-0.793
 11
11.115
 21
-0.789
  0
ARC
  8
0
 10
11.115
 20
0.785
 40
0.115
 50
4.189
 51
-175.811
  0
LINE
  8
0
 10
11.000
 20
0.777
 11
11.115
 21
-0.793
  0
LINE
  8
0
 10
11.230
 20
0.793
 11
11.345
 21
-0.777
  0
ARC
  8
0
 10
11.230
 20
-0.785
 40
0.115
 50
-175.811
 51
4.189
  0
LINE
  8
0
 10
11.230
 20
0.793
 11
11.230
 21
0.789
  0
LINE
  8
0
 10
11.345
 20
-0.793
 11
11.345
 21
-0.789
  0
ARC
  8
0
 10
11.345
 20
0.785
 40
0.115
 50
4.189
 51
-175.811
  0
LINE
  8
0
 10
11.230
 20
0.777
 11
11.345
 21
-0.793
  0
LINE
  8
0
 10
11.460
 20
0.793
 11
11.575
 21
-0.777
  0
ARC
  8
0
 10
11.460
 20
-0.785
 40
0.115
 50
-175.811
 51
4.189
  0
LINE
  8
0
 10
11.460
 20
0.793
 11
11.460
 21
0.789
  0
LINE
  8
0
 10
11.575
 20
-0.793
 11
11.575
 21
-0.789
  0
ARC
  8
0
 10
11.575
 20
0.785
 40
0.115
 50
4.189
 51
-175.811
  0
LINE
  8
0
 10
11.460
 20
0.777
 11
11.575
 21
-0.793
  0
LINE
  8
0
 10
11.690
 20
0.793
 11
11.805
 21
-0.777
  0
ARC
  8
0
 10
11.690
 20
-0.785
 40
0.115
 50
-175.811
 51
4.189
  0
LINE
  8
0
 10
11.690
 20
0.793
 11
11.690
 21
0.789
  0
LINE
  8
0
 10
11.805
 20
-0.793
 11
11.805
 21
-0.789
  0
ARC
  8
0
 10
11.805
 20
0.785
 40
0.115
 50
4.189
 51
-175.811
  0
LINE
  8
0
 10
11.690
 20
0.777
 11
11.805
 21
-0.793
  0
LINE
  8
0
 10
11.920
 20
0.793
 11
12.035
 21
-0.777
  0
ARC
  8
0
 10
11.920
 20
-0.785
 40
0.115
 50
-175.811
 51
4.189
  0
LINE
  8
0
 10
11.920
 20
0.793
 11
11.920
 21
0.789
  0
LINE
  8
0
 10
12.035
 20
-0.793
 11
12.035
 21
-0.789
  0
ARC
  8
0
 10
12.035
 20
0.785
 40
0.115
 50
4.189
 51
-175.811
  0
LINE
  8
0
 10
11.920
 20
0.777
 11
12.035
 21
-0.793
  0
LINE
  8
0
 10
12.150
 20
0.793
 11
12.265
 21
-0.777
  0
ARC
  8
0
 10
12.150
 20
-0.785
 40
0.115
 50
-175.811
 51
4.189
  0
LINE
  8
0
 10
12.150
 20
0.793
 11
12.150
 21
0.789
  0
LINE
  8
0
 10
12.265
 20
-0.793
 11
12.265
 21
-0.789
  0
ARC
  8
0
 10
12.265
 20
0.785
 40
0.115
 50
4.189
 51
-175.811
  0
LINE
  8
0
 10
12.150
 20
0.777
 11
12.265
 21
-0.793
  0
LINE
  8
0
 10
12.380
 20
0.793
 11
12.495
 21
-0.777
  0
ARC
  8
0
 10
12.380
 20
-0.785
 40
0.115
 50
-175.811
 51
4.189
  0
LINE
  8
0
 10
12.380
 20
0.793
 11
12.380
 21
0.789
  0
LINE
  8
0
 10
12.495
 20
-0.793
 11
12.495
 21
-0.789
  0
ARC
  8
0
 10
12.495
 20
0.785
 40
0.115
 50
4.189
 51
-175.811
  0
LINE
  8
0
 10
12.380
 20
0.777
 11
12.495
 21
-0.793
  0
LINE
  8
0
 10
12.610
 20
0.793
 11
12.725
 21
-0.777
  0
ARC
  8
0
 10
12.610
 20
-0.785
 40
0.115
 50
-175.811
 51
4.189
  0
LINE
  8
0
 10
12.610
 20
0.793
 11
12.610
 21
0.789
  0
LINE
  8
0
 10
12.725
 20
-0.793
 11
12.725
 21
-0.789
  0
ARC
  8
0
 10
12.725
 20
0.785
 40
0.115
 50
4.189
 51
-175.811
  0
LINE
  8
0
 10
12.610
 20
0.777
 11
12.725
 21
-0.793
  0
LINE
  8
0
 10
12.840
 20
0.793
 11
12.955
 21
-0.777
  0
ARC
  8
0
 10
12.840
 20
-0.785
 40
0.115
 50
-175.811
 51
4.189
  0
LINE
  8
0
 10
12.840
 20
0.793
 11
12.840
 21
0.789
  0
LINE
  8
0
 10
12.955
 20
-0.793
 11
12.955
 21
-0.789
  0
ARC
  8
0
 10
12.955
 20
0.785
 40
0.115
 50
4.189
 51
-175.811
  0
LINE
  8
0
 10
12.840
 20
0.777
 11
12.955
 21
-0.793
  0
LINE
  8
0
 10
13.070
 20
0.793
 11
13.185
 21
-0.777
  0
ARC
  8
0
 10
13.070
 20
-0.785
 40
0.115
 50
-175.811
 51
4.189
  0
LINE
  8
0
 10
13.070
 20
0.793
 11
13.070
 21
0.789
  0
LINE
  8
0
 10
13.185
 20
-0.793
 11
13.185
 21
-0.789
  0
ARC
  8
0
 10
13.185
 20
0.785
 40
0.115
 50
4.189
 51
-175.811
  0
LINE
  8
0
 10
13.070
 20
0.777
 11
13.185
 21
-0.793
  0
LINE
  8
0
 10
13.300
 20
0.793
 11
13.415
 21
-0.777
  0
ARC
  8
0
 10
13.300
 20
-0.785
 40
0.115
 50
-175.811
 51
4.189
  0
LINE
  8
0
 10
13.300
 20
0.793
 11
13.300
 21
0.789
  0
LINE
  8
0
 10
13.415
 20
-0.793
 11
13.415
 21
-0.789
  0
ARC
  8
0
 10
13.415
 20
0.785
 40
0.115
 50
4.189
 51
-175.811
  0
LINE
  8
0
 10
13.300
 20
0.777
 11
13.415
 21
-0.793
  0
LINE
  8
0
 10
13.530
 20
0.793
 11
13.645
 21
-0.777
  0
ARC
  8
0
 10
13.530
 20
-0.785
 40
0.115
 50
-175.811
 51
4.189
  0
LINE
  8
0
 10
13.530
 20
0.793
 11
13.530
 21
0.789
  0
LINE
  8
0
 10
13.645
 20
-0.793
 11
13.645
 21
-0.789
  0
ARC
  8
0
 10
13.645
 20
0.785
 40
0.115
 50
4.189
 51
-175.811
  0
LINE
  8
0
 10
13.530
 20
0.777
 11
13.645
 21
-0.793
  0
LINE
  8
0
 10
13.760
 20
0.793
 11
13.875
 21
-0.777
  0
ARC
  8
0
 10
13.760
 20
-0.785
 40
0.115
 50
-175.811
 51
4.189
  0
LINE
  8
0
 10
13.760
 20
0.793
 11
13.760
 21
0.789
  0
LINE
  8
0
 10
13.875
 20
-0.793
 11
13.875
 21
-0.789
  0
ARC
  8
0
 10
13.875
 20
0.785
 40
0.115
 50
4.189
 51
-175.811
  0
LINE
  8
0
 10
13.760
 20
0.777
 11
13.875
 21
-0.793
  0
LINE
  8
0
 10
13.990
 20
0.793
 11
14.105
 21
-0.777
  0
ARC
  8
0
 10
13.990
 20
-0.785
 40
0.115
 50
-175.811
 51
4.189
  0
LINE
  8
0
 10
13.990
 20
0.793
 11
13.990
 21
0.789
  0
LINE
  8
0
 10
14.105
 20
-0.793
 11
14.105
 21
-0.789
  0
ARC
  8
0
 10
14.105
 20
0.785
 40
0.115
 50
4.189
 51
-175.811
  0
LINE
  8
0
 10
13.990
 20
0.777
 11
14.091
 21
-0.597
  0
LINE
  8
0
 10
14.220
 20
0.793
 11
14.320
 21
-0.580
  0
ARC
  8
0
 10
14.206
 20
-0.589
 40
0.115
 50
-175.811
 51
4.189
  0
LINE
  8
0
 10
14.321
 20
-0.592
 11
14.335
 21
0.016
  0
ARC
  8
0
 10
15.005
 20
0.000
 40
0.670
 50
-112.500
 51
178.623
  0
ARC
  8
0
 10
15.005
 20
0.000
 40
0.900
 50
-112.500
 51
147.880
  0
LINE
  8
0
 10
14.661
 20
-0.831
 11
14.749
 21
-0.619
  0
ENDSEC
  0
EOF
